  0
SECTION
  2
HEADER
  9
$ACADVER
  1
AC1015
  9
$ACADMAINTVER
 70
     6
  9
$DWGCODEPAGE
  3
ANSI_1254
  9
$INSBASE
 10
0.0
 20
0.0
 30
0.0
  9
$EXTMIN
 10
0.0
 20
0.0
 30
0.0
  9
$EXTMAX
 10
279.4
 20
215.9
 30
0.0
  9
$LIMMIN
 10
0.0
 20
0.0
  9
$LIMMAX
 10
279.4
 20
215.9
  9
$ORTHOMODE
 70
     0
  9
$REGENMODE
 70
     1
  9
$FILLMODE
 70
     1
  9
$QTEXTMODE
 70
     0
  9
$MIRRTEXT
 70
     1
  9
$LTSCALE
 40
1.0
  9
$ATTMODE
 70
     1
  9
$TEXTSIZE
 40
3.5
  9
$TRACEWID
 40
1.0
  9
$TEXTSTYLE
  7
Standard
  9
$CLAYER
  8
0
  9
$CELTYPE
  6
ByLayer
  9
$CECOLOR
 62
   256
  9
$CELTSCALE
 40
1.0
  9
$DISPSILH
 70
     0
  9
$DIMSCALE
 40
1.0
  9
$DIMASZ
 40
3.5
  9
$DIMEXO
 40
1.0
  9
$DIMDLI
 40
3.75
  9
$DIMRND
 40
0.0
  9
$DIMDLE
 40
0.0
  9
$DIMEXE
 40
1.0
  9
$DIMTP
 40
0.0
  9
$DIMTM
 40
0.0
  9
$DIMTXT
 40
3.5
  9
$DIMCEN
 40
2.5
  9
$DIMTSZ
 40
0.0
  9
$DIMTOL
 70
     0
  9
$DIMLIM
 70
     0
  9
$DIMTIH
 70
     1
  9
$DIMTOH
 70
     1
  9
$DIMSE1
 70
     0
  9
$DIMSE2
 70
     0
  9
$DIMTAD
 70
     1
  9
$DIMZIN
 70
     0
  9
$DIMBLK
  1

  9
$DIMASO
 70
     1
  9
$DIMSHO
 70
     1
  9
$DIMPOST
  1

  9
$DIMAPOST
  1

  9
$DIMALT
 70
     0
  9
$DIMALTD
 70
     3
  9
$DIMALTF
 40
0.0393700787
  9
$DIMLFAC
 40
1.0
  9
$DIMTOFL
 70
     1
  9
$DIMTVP
 40
0.0
  9
$DIMTIX
 70
     0
  9
$DIMSOXD
 70
     0
  9
$DIMSAH
 70
     0
  9
$DIMBLK1
  1

  9
$DIMBLK2
  1

  9
$DIMSTYLE
  2
ISO-25
  9
$DIMCLRD
 70
     0
  9
$DIMCLRE
 70
     0
  9
$DIMCLRT
 70
     0
  9
$DIMTFAC
 40
1.0
  9
$DIMGAP
 40
1.524
  9
$DIMJUST
 70
     0
  9
$DIMSD1
 70
     0
  9
$DIMSD2
 70
     0
  9
$DIMTOLJ
 70
     0
  9
$DIMTZIN
 70
     0
  9
$DIMALTZ
 70
     0
  9
$DIMALTTZ
 70
     0
  9
$DIMUPT
 70
     0
  9
$DIMDEC
 70
     2
  9
$DIMTDEC
 70
     2
  9
$DIMALTU
 70
     2
  9
$DIMALTTD
 70
     3
  9
$DIMTXSTY
  7
Standard
  9
$DIMAUNIT
 70
     0
  9
$DIMADEC
 70
     2
  9
$DIMALTRND
 40
0.0
  9
$DIMAZIN
 70
     0
  9
$DIMDSEP
 70
    44
  9
$DIMATFIT
 70
     3
  9
$DIMFRAC
 70
     0
  9
$DIMLDRBLK
  1

  9
$DIMLUNIT
 70
     2
  9
$DIMLWD
 70
    -2
  9
$DIMLWE
 70
    -2
  9
$DIMTMOVE
 70
     0
  9
$LUNITS
 70
     2
  9
$LUPREC
 70
     2
  9
$SKETCHINC
 40
1.0
  9
$FILLETRAD
 40
10.0
  9
$AUNITS
 70
     0
  9
$AUPREC
 70
     2
  9
$MENU
  1
.
  9
$ELEVATION
 40
0.0
  9
$PELEVATION
 40
0.0
  9
$THICKNESS
 40
0.0
  9
$LIMCHECK
 70
     0
  9
$CHAMFERA
 40
0.0
  9
$CHAMFERB
 40
0.0
  9
$CHAMFERC
 40
0.0
  9
$CHAMFERD
 40
0.0
  9
$SKPOLY
 70
     0
  9
$TDCREATE
 40
2458985.636313461
  9
$TDUCREATE
 40
2458985.511313461
  9
$TDUPDATE
 40
2458985.636313773
  9
$TDUUPDATE
 40
2458985.511313773
  9
$TDINDWG
 40
0.0000000116
  9
$TDUSRTIMER
 40
0.0000000116
  9
$USRTIMER
 70
     1
  9
$ANGBASE
 50
0.0
  9
$ANGDIR
 70
     0
  9
$PDMODE
 70
     0
  9
$PDSIZE
 40
-1.0
  9
$PLINEWID
 40
0.0
  9
$SPLFRAME
 70
     0
  9
$SPLINETYPE
 70
     6
  9
$SPLINESEGS
 70
     8
  9
$HANDSEED
  5
CB
  9
$SURFTAB1
 70
     6
  9
$SURFTAB2
 70
     6
  9
$SURFTYPE
 70
     6
  9
$SURFU
 70
     6
  9
$SURFV
 70
     6
  9
$UCSBASE
  2

  9
$UCSNAME
  2

  9
$UCSORG
 10
0.0
 20
0.0
 30
0.0
  9
$UCSXDIR
 10
1.0
 20
0.0
 30
0.0
  9
$UCSYDIR
 10
0.0
 20
1.0
 30
0.0
  9
$UCSORTHOREF
  2

  9
$UCSORTHOVIEW
 70
     0
  9
$UCSORGTOP
 10
0.0
 20
0.0
 30
0.0
  9
$UCSORGBOTTOM
 10
0.0
 20
0.0
 30
0.0
  9
$UCSORGLEFT
 10
0.0
 20
0.0
 30
0.0
  9
$UCSORGRIGHT
 10
0.0
 20
0.0
 30
0.0
  9
$UCSORGFRONT
 10
0.0
 20
0.0
 30
0.0
  9
$UCSORGBACK
 10
0.0
 20
0.0
 30
0.0
  9
$PUCSBASE
  2

  9
$PUCSNAME
  2

  9
$PUCSORG
 10
0.0
 20
0.0
 30
0.0
  9
$PUCSXDIR
 10
1.0
 20
0.0
 30
0.0
  9
$PUCSYDIR
 10
0.0
 20
1.0
 30
0.0
  9
$PUCSORTHOREF
  2

  9
$PUCSORTHOVIEW
 70
     0
  9
$PUCSORGTOP
 10
0.0
 20
0.0
 30
0.0
  9
$PUCSORGBOTTOM
 10
0.0
 20
0.0
 30
0.0
  9
$PUCSORGLEFT
 10
0.0
 20
0.0
 30
0.0
  9
$PUCSORGRIGHT
 10
0.0
 20
0.0
 30
0.0
  9
$PUCSORGFRONT
 10
0.0
 20
0.0
 30
0.0
  9
$PUCSORGBACK
 10
0.0
 20
0.0
 30
0.0
  9
$USERI1
 70
     0
  9
$USERI2
 70
     0
  9
$USERI3
 70
     0
  9
$USERI4
 70
     0
  9
$USERI5
 70
     0
  9
$USERR1
 40
0.0
  9
$USERR2
 40
0.0
  9
$USERR3
 40
0.0
  9
$USERR4
 40
0.0
  9
$USERR5
 40
0.0
  9
$WORLDVIEW
 70
     1
  9
$SHADEDGE
 70
     3
  9
$SHADEDIF
 70
    70
  9
$TILEMODE
 70
     1
  9
$MAXACTVP
 70
    64
  9
$PINSBASE
 10
0.0
 20
0.0
 30
0.0
  9
$PLIMCHECK
 70
     0
  9
$PEXTMIN
 10
1.0000000000E+20
 20
1.0000000000E+20
 30
1.0000000000E+20
  9
$PEXTMAX
 10
-1.0000000000E+20
 20
-1.0000000000E+20
 30
-1.0000000000E+20
  9
$PLIMMIN
 10
0.0
 20
0.0
  9
$PLIMMAX
 10
420.0
 20
297.0
  9
$UNITMODE
 70
     0
  9
$VISRETAIN
 70
     1
  9
$PLINEGEN
 70
     0
  9
$PSLTSCALE
 70
     1
  9
$TREEDEPTH
 70
  3020
  9
$CMLSTYLE
  2
Standard
  9
$CMLJUST
 70
     0
  9
$CMLSCALE
 40
20.0
  9
$PROXYGRAPHICS
 70
     1
  9
$MEASUREMENT
 70
     1
  9
$CELWEIGHT
370
    -1
  9
$ENDCAPS
280
     0
  9
$JOINSTYLE
280
     0
  9
$LWDISPLAY
290
     1
  9
$INSUNITS
 70
     4
  9
$HYPERLINKBASE
  1

  9
$STYLESHEET
  1

  9
$XEDIT
290
     1
  9
$CEPSNTYPE
380
     0
  9
$PSTYLEMODE
290
     1
  9
$FINGERPRINTGUID
  2
{3949571c-a255-4455-b724-12450c97002c}
  9
$VERSIONGUID
  2
{FAEB1C32-E019-11D5-929B-00C0DF256EC4}
  9
$EXTNAMES
290
     1
  9
$PSVPSCALE
 40
0.0
  9
$OLESTARTUP
290
     0
  0
ENDSEC
  0
SECTION
  2
CLASSES
  0
CLASS
  1
ACDBDICTIONARYWDFLT
  2
AcDbDictionaryWithDefault
  3
ObjectDBX Classes
 90
        0
280
     0
281
     0
  0
CLASS
  1
VISUALSTYLE
  2
AcDbVisualStyle
  3
ObjectDBX Classes
 90
     4095
280
     0
281
     0
  0
CLASS
  1
MATERIAL
  2
AcDbMaterial
  3
ObjectDBX Classes
 90
     1153
280
     0
281
     0
  0
CLASS
  1
SCALE
  2
AcDbScale
  3
ObjectDBX Classes
 90
     1153
280
     0
281
     0
  0
CLASS
  1
TABLESTYLE
  2
AcDbTableStyle
  3
ObjectDBX Classes
 90
     4095
280
     0
281
     0
  0
CLASS
  1
MLEADERSTYLE
  2
AcDbMLeaderStyle
  3
ACDB_MLEADERSTYLE_CLASS
 90
     4095
280
     0
281
     0
  0
CLASS
  1
SUN
  2
AcDbSun
  3
SCENEOE
 90
     1153
280
     0
281
     0
  0
CLASS
  1
ACDBPLACEHOLDER
  2
AcDbPlaceHolder
  3
ObjectDBX Classes
 90
        0
280
     0
281
     0
  0
CLASS
  1
LAYOUT
  2
AcDbLayout
  3
ObjectDBX Classes
 90
        0
280
     0
281
     0
  0
ENDSEC
  0
SECTION
  2
TABLES
  0
TABLE
  2
VPORT
  5
8
330
0
100
AcDbSymbolTable
 70
     1
  0
VPORT
  5
29
330
8
100
AcDbSymbolTableRecord
100
AcDbViewportTableRecord
  2
*Active
 70
     0
 10
0.0
 20
0.0
 11
1.0
 21
1.0
 12
139.7
 22
107.95
 13
0.0
 23
0.0
 14
10.0
 24
10.0
 15
10.0
 25
10.0
 16
0.0
 26
0.0
 36
1.0
 17
0.0
 27
0.0
 37
0.0
 40
215.9
 41
1.2941176471
 42
50.0
 43
0.0
 44
0.0
 50
0.0
 51
0.0
 71
     0
 72
  2000
 73
     1
 74
     3
 75
     0
 76
     0
 77
     0
 78
     0
281
     0
 65
     1
110
0.0
120
0.0
130
0.0
111
1.0
121
0.0
131
0.0
112
0.0
122
1.0
132
0.0
 79
     0
146
0.0
  0
ENDTAB
  0
TABLE
  2
LTYPE
  5
5
330
0
100
AcDbSymbolTable
 70
     6
  0
LTYPE
  5
14
330
5
100
AcDbSymbolTableRecord
100
AcDbLinetypeTableRecord
  2
ByBlock
 70
     0
  3

 72
    65
 73
     0
 40
0.0
  0
LTYPE
  5
15
330
5
100
AcDbSymbolTableRecord
100
AcDbLinetypeTableRecord
  2
ByLayer
 70
     0
  3

 72
    65
 73
     0
 40
0.0
  0
LTYPE
  5
16
330
5
100
AcDbSymbolTableRecord
100
AcDbLinetypeTableRecord
  2
Continuous
 70
     0
  3
Solid line
 72
    65
 73
     0
 40
0.0
  0
LTYPE
  5
6E
330
5
100
AcDbSymbolTableRecord
100
AcDbLinetypeTableRecord
  2
HIDDEN
 70
     0
  3
Hidden __ __ __ __ __ __ __ __ __ __ __ __ __ __
 72
    65
 73
     2
 40
1.905
 49
1.27
 74
     0
 49
-0.635
 74
     0
  0
LTYPE
  5
6F
330
5
100
AcDbSymbolTableRecord
100
AcDbLinetypeTableRecord
  2
PHANTOM
 70
     0
  3
Phantom ______  __  __  ______  __  __  ______
 72
    65
 73
     6
 40
12.7
 49
6.35
 74
     0
 49
-1.27
 74
     0
 49
1.27
 74
     0
 49
-1.27
 74
     0
 49
1.27
 74
     0
 49
-1.27
 74
     0
  0
LTYPE
  5
70
330
5
100
AcDbSymbolTableRecord
100
AcDbLinetypeTableRecord
  2
CENTER
 70
     0
  3
Center ____ _ ____ _ ____ _ ____ _ ____ _ ____
 72
    65
 73
     4
 40
10.16
 49
6.35
 74
     0
 49
-1.27
 74
     0
 49
1.27
 74
     0
 49
-1.27
 74
     0
  0
LTYPE
  5
71
330
5
100
AcDbSymbolTableRecord
100
AcDbLinetypeTableRecord
  2
CENTERX2
 70
     0
  3
Center (2x) ________  __  ________  __  _____
 72
    65
 73
     4
 40
20.32
 49
12.7
 74
     0
 49
-2.54
 74
     0
 49
2.54
 74
     0
 49
-2.54
 74
     0
  0
LTYPE
  5
72
330
5
100
AcDbSymbolTableRecord
100
AcDbLinetypeTableRecord
  2
DOT2
 70
     0
  3
Dot (.5x) ........................................
 72
    65
 73
     2
 40
0.635
 49
0.0
 74
     0
 49
-0.635
 74
     0
  0
ENDTAB
  0
TABLE
  2
LAYER
  5
2
330
0
100
AcDbSymbolTable
 70
    17
  0
LAYER
  5
10
330
2
100
AcDbSymbolTableRecord
100
AcDbLayerTableRecord
  2
0
 70
     0
 62
     7
  6
Continuous
370
    -3
390
F
  0
LAYER
  5
73
330
2
100
AcDbSymbolTableRecord
100
AcDbLayerTableRecord
  2
FORMAT
 70
     0
 62
     7
  6
Continuous
370
    -3
390
F
  0
LAYER
  5
74
330
2
100
AcDbSymbolTableRecord
100
AcDbLayerTableRecord
  2
YARDIMCI_GEOMETRI
 70
     0
 62
    -6
  6
Continuous
290
     0
370
    -3
390
F
  0
LAYER
  5
75
330
2
100
AcDbSymbolTableRecord
100
AcDbLayerTableRecord
  2
SAYFA_CERCEVESI
 70
     0
 62
     7
  6
Continuous
370
    25
390
F
  0
LAYER
  5
76
330
2
100
AcDbSymbolTableRecord
100
AcDbLayerTableRecord
  2
ANTET
 70
     0
 62
     7
  6
Continuous
370
    -3
390
F
  0
LAYER
  5
77
330
2
100
AcDbSymbolTableRecord
100
AcDbLayerTableRecord
  2
OLCU
 70
     0
 62
   150
  6
Continuous
370
    -3
390
F
  0
LAYER
  5
78
330
2
100
AcDbSymbolTableRecord
100
AcDbLayerTableRecord
  2
METIN
 70
     0
 62
    96
  6
Continuous
370
    -3
390
F
  0
LAYER
  5
79
330
2
100
AcDbSymbolTableRecord
100
AcDbLayerTableRecord
  2
BALON
 70
     0
 62
     5
  6
Continuous
370
    -3
390
F
  0
LAYER
  5
7A
330
2
100
AcDbSymbolTableRecord
100
AcDbLayerTableRecord
  2
VURGU
 70
     0
 62
     7
  6
Continuous
370
    -3
390
F
  0
LAYER
  5
7B
330
2
100
AcDbSymbolTableRecord
100
AcDbLayerTableRecord
  2
SILIK
 70
     0
 62
     7
  6
Continuous
370
    -3
390
F
  0
LAYER
  5
7C
330
2
100
AcDbSymbolTableRecord
100
AcDbLayerTableRecord
  2
MODEL
 70
     0
 62
     7
  6
Continuous
370
    -3
390
F
  0
LAYER
  5
7D
330
2
100
AcDbSymbolTableRecord
100
AcDbLayerTableRecord
  2
DETAYLANDıRMA
 70
     0
 62
   190
  6
Continuous
370
    -3
390
F
  0
LAYER
  5
7E
330
2
100
AcDbSymbolTableRecord
100
AcDbLayerTableRecord
  2
TOLERANS
 70
     0
 62
   230
  6
Continuous
370
    -3
390
F
  0
LAYER
  5
7F
330
2
100
AcDbSymbolTableRecord
100
AcDbLayerTableRecord
  2
MERKEZ_CIZGILERI
 70
     0
 62
    30
  6
Continuous
370
    -3
390
F
  0
LAYER
  5
80
330
2
100
AcDbSymbolTableRecord
100
AcDbLayerTableRecord
  2
KESIT-DETAY_CIZGILERI
 70
     0
 62
     7
  6
Continuous
370
    -3
390
F
  0
LAYER
  5
81
330
2
100
AcDbSymbolTableRecord
100
AcDbLayerTableRecord
  2
\U+041E\U+0421\U+0415\U+0412\U+042B\U+0415
 70
     0
 62
     7
  6
Continuous
370
    -3
390
F
  0
LAYER
  5
82
330
2
100
AcDbSymbolTableRecord
100
AcDbLayerTableRecord
  2
\U+0412\U+041E\U+0414\U+042F\U+041D\U+042B\U+0415_\U+0417\U+041D\U+0410\U+041A\U+0418
 70
     0
 62
    11
  6
Continuous
370
    -3
390
F
  0
ENDTAB
  0
TABLE
  2
STYLE
  5
3
330
0
100
AcDbSymbolTable
 70
     1
  0
STYLE
  5
11
330
3
100
AcDbSymbolTableRecord
100
AcDbTextStyleTableRecord
  2
Standard
 70
     0
 40
0.0
 41
1.0
 50
0.0
 71
     0
 42
3.5
  3
txt
  4

  0
ENDTAB
  0
TABLE
  2
VIEW
  5
6
330
0
100
AcDbSymbolTable
 70
     0
  0
ENDTAB
  0
TABLE
  2
UCS
  5
7
330
0
100
AcDbSymbolTable
 70
     0
  0
ENDTAB
  0
TABLE
  2
APPID
  5
9
330
0
100
AcDbSymbolTable
 70
     1
  0
APPID
  5
12
330
9
100
AcDbSymbolTableRecord
100
AcDbRegAppTableRecord
  2
ACAD
 70
     0
  0
ENDTAB
  0
TABLE
  2
DIMSTYLE
  5
A
330
0
100
AcDbSymbolTable
 70
     1
100
AcDbDimStyleTable
  0
DIMSTYLE
105
27
330
A
100
AcDbSymbolTableRecord
100
AcDbDimStyleTableRecord
  2
ISO-25
 70
     0
 41
2.5
 42
0.625
 43
3.75
 44
1.25
 73
     0
 74
     0
 77
     1
 78
     8
140
2.5
141
2.5
143
0.0393700787
147
0.625
171
     3
172
     1
178
     0
271
     2
272
     2
274
     3
278
    44
283
     0
284
     8
340
11
  0
ENDTAB
  0
TABLE
  2
BLOCK_RECORD
  5
1
330
0
100
AcDbSymbolTable
 70
     2
  0
BLOCK_RECORD
  5
1F
330
1
100
AcDbSymbolTableRecord
100
AcDbBlockTableRecord
  2
*Model_Space
340
22
  0
BLOCK_RECORD
  5
1B
330
1
100
AcDbSymbolTableRecord
100
AcDbBlockTableRecord
  2
*Paper_Space
340
1E
  0
BLOCK_RECORD
  5
23
330
1
100
AcDbSymbolTableRecord
100
AcDbBlockTableRecord
  2
*Paper_Space0
340
26
  0
BLOCK_RECORD
  5
87
330
1
100
AcDbSymbolTableRecord
100
AcDbBlockTableRecord
  2
SW_CENTERMARKSYMBOL_0
340
0
102
{BLKREFS
331
92
102
}
  0
ENDTAB
  0
ENDSEC
  0
SECTION
  2
BLOCKS
  0
BLOCK
  5
20
330
1F
100
AcDbEntity
  8
0
100
AcDbBlockBegin
  2
*Model_Space
 70
     0
 10
0.0
 20
0.0
 30
0.0
  3
*Model_Space
  1

  0
ENDBLK
  5
21
330
1F
100
AcDbEntity
  8
0
100
AcDbBlockEnd
  0
BLOCK
  5
1C
330
1B
100
AcDbEntity
 67
     1
  8
0
100
AcDbBlockBegin
  2
*Paper_Space
 70
     0
 10
0.0
 20
0.0
 30
0.0
  3
*Paper_Space
  1

  0
ENDBLK
  5
1D
330
1B
100
AcDbEntity
 67
     1
  8
0
100
AcDbBlockEnd
  0
BLOCK
  5
24
330
23
100
AcDbEntity
  8
0
100
AcDbBlockBegin
  2
*Paper_Space0
 70
     0
 10
0.0
 20
0.0
 30
0.0
  3
*Paper_Space0
  1

  0
ENDBLK
  5
25
330
23
100
AcDbEntity
  8
0
100
AcDbBlockEnd
  0
BLOCK
  5
88
330
87
100
AcDbEntity
  8
0
100
AcDbBlockBegin
  2
SW_CENTERMARKSYMBOL_0
 70
     0
 10
0.0
 20
0.0
 30
0.0
  3
SW_CENTERMARKSYMBOL_0
  1

  0
LINE
  5
8A
330
87
100
AcDbEntity
  8
FORMAT
 62
     0
100
AcDbLine
 10
0.0
 20
0.0
 30
0.0
 11
0.0
 21
2.5
 31
0.0
  0
LINE
  5
8B
330
87
100
AcDbEntity
  8
FORMAT
 62
     0
100
AcDbLine
 10
0.0
 20
0.0
 30
0.0
 11
-2.5
 21
0.0
 31
0.0
  0
LINE
  5
8C
330
87
100
AcDbEntity
  8
FORMAT
 62
     0
100
AcDbLine
 10
0.0
 20
0.0
 30
0.0
 11
0.0
 21
-2.5
 31
0.0
  0
LINE
  5
8D
330
87
100
AcDbEntity
  8
FORMAT
 62
     0
100
AcDbLine
 10
0.0
 20
0.0
 30
0.0
 11
2.5
 21
0.0
 31
0.0
  0
LINE
  5
8E
330
87
100
AcDbEntity
  8
FORMAT
 62
     0
100
AcDbLine
 10
0.0
 20
5.0
 30
0.0
 11
0.0
 21
68.5
 31
0.0
  0
LINE
  5
8F
330
87
100
AcDbEntity
  8
FORMAT
 62
     0
100
AcDbLine
 10
-5.0
 20
0.0
 30
0.0
 11
-68.5
 21
0.0
 31
0.0
  0
LINE
  5
90
330
87
100
AcDbEntity
  8
FORMAT
 62
     0
100
AcDbLine
 10
0.0
 20
-5.0
 30
0.0
 11
0.0
 21
-68.5
 31
0.0
  0
LINE
  5
91
330
87
100
AcDbEntity
  8
FORMAT
 62
     0
100
AcDbLine
 10
5.0
 20
0.0
 30
0.0
 11
68.5
 21
0.0
 31
0.0
  0
ENDBLK
  5
89
330
87
100
AcDbEntity
  8
0
100
AcDbBlockEnd
  0
ENDSEC
  0
SECTION
  2
ENTITIES
  0
CIRCLE
  5
83
330
1F
100
AcDbEntity
  8
0
  6
Continuous
 62
     7
370
    25
100
AcDbCircle
 10
139.0773721293
 20
108.4022254831
 30
0.0
 40
44.99999999999997
  0
CIRCLE
  5
84
330
1F
100
AcDbEntity
  8
0
  6
Continuous
 62
     7
370
    25
100
AcDbCircle
 10
139.0773721293
 20
108.4022254831
 30
0.0
 40
36.79999999999997
  0
CIRCLE
  5
85
330
1F
100
AcDbEntity
  8
0
  6
Continuous
 62
     7
370
    25
100
AcDbCircle
 10
139.0773721293
 20
108.4022254831
 30
0.0
 40
53.99999999999999
  0
CIRCLE
  5
86
330
1F
100
AcDbEntity
  8
0
  6
Continuous
 62
     7
370
    25
100
AcDbCircle
 10
139.0773721293
 20
108.4022254831
 30
0.0
 40
65.99999999999999
  0
INSERT
  5
92
330
1F
100
AcDbEntity
  8
FORMAT
 62
     7
100
AcDbBlockReference
  2
SW_CENTERMARKSYMBOL_0
 10
139.0773721293
 20
108.4022254831
 30
0.0
  0
LINE
  5
93
330
1F
100
AcDbEntity
  8
0
  6
Continuous
 62
     7
370
    25
100
AcDbLine
 10
205.0773721293
 20
241.5806074329
 30
0.0
 11
205.0773721293
 21
258.5806074329
 31
0.0
  0
LINE
  5
94
330
1F
100
AcDbEntity
  8
0
  6
Continuous
 62
     7
370
    25
100
AcDbLine
 10
73.0773721293
 20
258.5806074329
 30
0.0
 11
73.0773721293
 21
241.5806074329
 31
0.0
  0
LINE
  5
95
330
1F
100
AcDbEntity
  8
0
  6
Continuous
 62
     7
370
    25
100
AcDbLine
 10
193.0773721293
 20
258.5806074329
 30
0.0
 11
184.0773721293
 21
278.5806074329
 31
0.0
  0
LINE
  5
96
330
1F
100
AcDbEntity
  8
0
  6
Continuous
 62
     7
370
    25
100
AcDbLine
 10
94.0773721293
 20
278.5806074329
 30
0.0
 11
85.0773721293
 21
258.5806074329
 31
0.0
  0
LINE
  5
97
330
1F
100
AcDbEntity
  8
0
  6
Continuous
 62
     7
370
    25
100
AcDbLine
 10
184.0773721293
 20
278.5806074329
 30
0.0
 11
184.0773721293
 21
381.5806074329
 31
0.0
  0
LINE
  5
98
330
1F
100
AcDbEntity
  8
0
  6
Continuous
 62
     7
370
    25
100
AcDbLine
 10
94.0773721293
 20
381.5806074329
 30
0.0
 11
94.0773721293
 21
278.5806074329
 31
0.0
  0
LINE
  5
99
330
1F
100
AcDbEntity
  8
0
  6
Continuous
 62
     7
370
    25
100
AcDbLine
 10
205.0773721293
 20
241.5806074329
 30
0.0
 11
73.0773721293
 21
241.5806074329
 31
0.0
  0
LINE
  5
9A
330
1F
100
AcDbEntity
  8
0
  6
Continuous
 62
     7
370
    25
100
AcDbLine
 10
205.0773721293
 20
258.5806074329
 30
0.0
 11
73.0773721293
 21
258.5806074329
 31
0.0
  0
LINE
  5
9B
330
1F
100
AcDbEntity
  8
0
  6
Continuous
 62
     7
370
    25
100
AcDbLine
 10
184.0773721293
 20
278.5806074329
 30
0.0
 11
94.0773721293
 21
278.5806074329
 31
0.0
  0
LINE
  5
9C
330
1F
100
AcDbEntity
  8
0
  6
Continuous
 62
     7
370
    25
100
AcDbLine
 10
184.0773721293
 20
381.5806074329
 30
0.0
 11
94.0773721293
 21
381.5806074329
 31
0.0
  0
LINE
  5
9D
330
1F
100
AcDbEntity
  8
0
  6
Continuous
 62
     7
370
    25
100
AcDbLine
 10
263.0474065559
 20
42.4022254831
 30
0.0
 11
280.0474065559
 21
42.4022254831
 31
0.0
  0
LINE
  5
9E
330
1F
100
AcDbEntity
  8
0
  6
Continuous
 62
     7
370
    25
100
AcDbLine
 10
280.0474065559
 20
174.4022254831
 30
0.0
 11
263.0474065559
 21
174.4022254831
 31
0.0
  0
LINE
  5
9F
330
1F
100
AcDbEntity
  8
0
  6
Continuous
 62
     7
370
    25
100
AcDbLine
 10
280.0474065559
 20
54.4022254831
 30
0.0
 11
300.0474065559
 21
63.4022254831
 31
0.0
  0
LINE
  5
A0
330
1F
100
AcDbEntity
  8
0
  6
Continuous
 62
     7
370
    25
100
AcDbLine
 10
300.0474065559
 20
153.4022254831
 30
0.0
 11
280.0474065559
 21
162.4022254831
 31
0.0
  0
LINE
  5
A1
330
1F
100
AcDbEntity
  8
0
  6
Continuous
 62
     7
370
    25
100
AcDbLine
 10
300.0474065559
 20
63.4022254831
 30
0.0
 11
403.0474065559
 21
63.4022254831
 31
0.0
  0
LINE
  5
A2
330
1F
100
AcDbEntity
  8
0
  6
Continuous
 62
     7
370
    25
100
AcDbLine
 10
403.0474065559
 20
153.4022254831
 30
0.0
 11
300.0474065559
 21
153.4022254831
 31
0.0
  0
LINE
  5
A3
330
1F
100
AcDbEntity
  8
0
  6
Continuous
 62
     7
370
    25
100
AcDbLine
 10
263.0474065559
 20
108.4022254831
 30
0.0
 11
263.0474065559
 21
174.4022254831
 31
0.0
  0
LINE
  5
A4
330
1F
100
AcDbEntity
  8
0
  6
Continuous
 62
     7
370
    25
100
AcDbLine
 10
263.0474065559
 20
42.4022254831
 30
0.0
 11
263.0474065559
 21
108.4022254831
 31
0.0
  0
LINE
  5
A5
330
1F
100
AcDbEntity
  8
0
  6
Continuous
 62
     7
370
    25
100
AcDbLine
 10
280.0474065559
 20
108.4022254831
 30
0.0
 11
280.0474065559
 21
174.4022254831
 31
0.0
  0
LINE
  5
A6
330
1F
100
AcDbEntity
  8
0
  6
Continuous
 62
     7
370
    25
100
AcDbLine
 10
280.0474065559
 20
42.4022254831
 30
0.0
 11
280.0474065559
 21
108.4022254831
 31
0.0
  0
LINE
  5
A7
330
1F
100
AcDbEntity
  8
0
  6
Continuous
 62
     7
370
    25
100
AcDbLine
 10
300.0474065559
 20
108.4022254831
 30
0.0
 11
300.0474065559
 21
153.4022254831
 31
0.0
  0
LINE
  5
A8
330
1F
100
AcDbEntity
  8
0
  6
Continuous
 62
     7
370
    25
100
AcDbLine
 10
300.0474065559
 20
63.4022254831
 30
0.0
 11
300.0474065559
 21
108.4022254831
 31
0.0
  0
LINE
  5
A9
330
1F
100
AcDbEntity
  8
0
  6
Continuous
 62
     7
370
    25
100
AcDbLine
 10
403.0474065559
 20
108.4022254831
 30
0.0
 11
403.0474065559
 21
153.4022254831
 31
0.0
  0
LINE
  5
AA
330
1F
100
AcDbEntity
  8
0
  6
Continuous
 62
     7
370
    25
100
AcDbLine
 10
403.0474065559
 20
63.4022254831
 30
0.0
 11
403.0474065559
 21
108.4022254831
 31
0.0
  0
LINE
  5
AB
330
1F
100
AcDbEntity
  8
0
  6
Continuous
 62
     7
370
    25
100
AcDbLine
 10
73.0773721293
 20
-26.5742332766
 30
0.0
 11
73.0773721293
 21
-43.5742332766
 31
0.0
  0
LINE
  5
AC
330
1F
100
AcDbEntity
  8
0
  6
Continuous
 62
     7
370
    25
100
AcDbLine
 10
205.0773721293
 20
-43.5742332766
 30
0.0
 11
205.0773721293
 21
-26.5742332766
 31
0.0
  0
LINE
  5
AD
330
1F
100
AcDbEntity
  8
0
  6
Continuous
 62
     7
370
    25
100
AcDbLine
 10
85.0773721293
 20
-43.5742332766
 30
0.0
 11
94.0773721293
 21
-63.5742332766
 31
0.0
  0
LINE
  5
AE
330
1F
100
AcDbEntity
  8
0
  6
Continuous
 62
     7
370
    25
100
AcDbLine
 10
184.0773721293
 20
-63.5742332766
 30
0.0
 11
193.0773721293
 21
-43.5742332766
 31
0.0
  0
LINE
  5
AF
330
1F
100
AcDbEntity
  8
0
  6
Continuous
 62
     7
370
    25
100
AcDbLine
 10
94.0773721293
 20
-63.5742332766
 30
0.0
 11
94.0773721293
 21
-166.5742332766
 31
0.0
  0
LINE
  5
B0
330
1F
100
AcDbEntity
  8
0
  6
Continuous
 62
     7
370
    25
100
AcDbLine
 10
184.0773721293
 20
-166.5742332766
 30
0.0
 11
184.0773721293
 21
-63.5742332766
 31
0.0
  0
LINE
  5
B1
330
1F
100
AcDbEntity
  8
0
  6
Continuous
 62
     7
370
    25
100
AcDbLine
 10
73.0773721293
 20
-26.5742332766
 30
0.0
 11
205.0773721293
 21
-26.5742332766
 31
0.0
  0
LINE
  5
B2
330
1F
100
AcDbEntity
  8
0
  6
Continuous
 62
     7
370
    25
100
AcDbLine
 10
73.0773721293
 20
-43.5742332766
 30
0.0
 11
205.0773721293
 21
-43.5742332766
 31
0.0
  0
LINE
  5
B3
330
1F
100
AcDbEntity
  8
0
  6
Continuous
 62
     7
370
    25
100
AcDbLine
 10
94.0773721293
 20
-63.5742332766
 30
0.0
 11
184.0773721293
 21
-63.5742332766
 31
0.0
  0
LINE
  5
B4
330
1F
100
AcDbEntity
  8
0
  6
Continuous
 62
     7
370
    25
100
AcDbLine
 10
94.0773721293
 20
-166.5742332766
 30
0.0
 11
184.0773721293
 21
-166.5742332766
 31
0.0
  0
LINE
  5
B5
330
1F
100
AcDbEntity
  8
0
  6
Continuous
 62
     7
370
    25
100
AcDbLine
 10
6.3134508697
 20
174.4022254831
 30
0.0
 11
-10.6865491303
 21
174.4022254831
 31
0.0
  0
LINE
  5
B6
330
1F
100
AcDbEntity
  8
0
  6
Continuous
 62
     7
370
    25
100
AcDbLine
 10
-10.6865491303
 20
42.4022254831
 30
0.0
 11
6.3134508697
 21
42.4022254831
 31
0.0
  0
LINE
  5
B7
330
1F
100
AcDbEntity
  8
0
  6
Continuous
 62
     7
370
    25
100
AcDbLine
 10
-10.6865491303
 20
162.4022254831
 30
0.0
 11
-30.6865491303
 21
153.4022254831
 31
0.0
  0
LINE
  5
B8
330
1F
100
AcDbEntity
  8
0
  6
Continuous
 62
     7
370
    25
100
AcDbLine
 10
-30.6865491303
 20
63.4022254831
 30
0.0
 11
-10.6865491303
 21
54.4022254831
 31
0.0
  0
LINE
  5
B9
330
1F
100
AcDbEntity
  8
0
  6
Continuous
 62
     7
370
    25
100
AcDbLine
 10
-30.6865491303
 20
153.4022254831
 30
0.0
 11
-133.6865491303
 21
153.4022254831
 31
0.0
  0
LINE
  5
BA
330
1F
100
AcDbEntity
  8
0
  6
Continuous
 62
     7
370
    25
100
AcDbLine
 10
-133.6865491303
 20
63.4022254831
 30
0.0
 11
-30.6865491303
 21
63.4022254831
 31
0.0
  0
LINE
  5
BB
330
1F
100
AcDbEntity
  8
0
  6
Continuous
 62
     7
370
    25
100
AcDbLine
 10
6.3134508697
 20
174.4022254831
 30
0.0
 11
6.3134508697
 21
42.4022254831
 31
0.0
  0
LINE
  5
BC
330
1F
100
AcDbEntity
  8
0
  6
Continuous
 62
     7
370
    25
100
AcDbLine
 10
-10.6865491303
 20
174.4022254831
 30
0.0
 11
-10.6865491303
 21
42.4022254831
 31
0.0
  0
LINE
  5
BD
330
1F
100
AcDbEntity
  8
0
  6
Continuous
 62
     7
370
    25
100
AcDbLine
 10
-30.6865491303
 20
153.4022254831
 30
0.0
 11
-30.6865491303
 21
63.4022254831
 31
0.0
  0
LINE
  5
BE
330
1F
100
AcDbEntity
  8
0
  6
Continuous
 62
     7
370
    25
100
AcDbLine
 10
-133.6865491303
 20
153.4022254831
 30
0.0
 11
-133.6865491303
 21
63.4022254831
 31
0.0
  0
LINE
  5
BF
330
1F
100
AcDbEntity
  8
0
  6
Continuous
 62
     7
370
    25
100
AcDbLine
 10
336.9716402207
 20
-33.0649888117
 30
0.0
 11
264.1396417584
 21
-75.1100065705
 31
0.0
  0
LINE
  5
C0
330
1F
100
AcDbEntity
  8
0
  6
Continuous
 62
     7
370
    25
100
AcDbLine
 10
309.1359847271
 20
-153.0544041848
 30
0.0
 11
381.9679831893
 21
-111.0093864259
 31
0.0
  0
LINE
  5
C1
330
1F
100
AcDbEntity
  8
0
  6
Continuous
 62
     7
370
    25
100
AcDbLine
 10
352.6354444319
 20
0.2255873671
 30
0.0
 11
340.6146291517
 21
-6.7138815834
 31
0.0
  0
LINE
  5
C2
330
1F
100
AcDbEntity
  8
0
  6
Continuous
 62
     7
370
    25
100
AcDbLine
 10
406.6092655057
 20
-121.0323314177
 30
0.0
 11
418.6300807859
 21
-114.0928624672
 31
0.0
  0
LINE
  5
C3
330
1F
100
AcDbEntity
  8
0
  6
Continuous
 62
     7
370
    25
100
AcDbLine
 10
339.4248630369
 20
-24.4980897788
 30
0.0
 11
333.2957867839
 21
-35.1870138321
 31
0.0
  0
LINE
  5
C4
330
1F
100
AcDbEntity
  8
0
  6
Continuous
 62
     7
370
    25
100
AcDbLine
 10
378.2921297526
 20
-113.1314114464
 30
0.0
 11
390.6135441665
 21
-113.1690939557
 31
0.0
  0
LWPOLYLINE
  5
C5
330
1F
100
AcDbEntity
  8
0
  6
Continuous
 62
     7
370
    25
100
AcDbPolyline
 90
       54
 70
   128
 43
0.0
 10
336.9716402207
 20
-33.0649888117
 10
338.1782061885
 20
-32.439441822
 10
339.6304876947
 20
-31.8563105462
 10
341.1537888319
 20
-31.4170163819
 10
342.7426565773
 20
-31.1231318883
 10
344.3914031968
 20
-30.9757090956
 10
346.0941266053
 20
-30.975275739
 10
347.8447314951
 20
-31.12183337
 10
349.6369511549
 20
-31.4148573501
 10
351.4643699034
 20
-31.8532987297
 10
353.320446056
 20
-32.4355880024
 10
355.1985353415
 20
-33.1596407237
 10
357.091914688
 20
-34.0228649728
 10
358.9938062885
 20
-35.0221706309
 10
360.897401865
 20
-36.1539804431
 10
362.7958870391
 20
-37.414242824
 10
364.6824657268
 20
-38.7984463614
 10
366.550384466
 20
-40.3016359658
 10
368.3929565924
 20
-41.9184306087
 10
370.2035861759
 20
-43.6430425848
 10
371.9757916326
 20
-45.4692982308
 10
373.7032289269
 20
-47.3906600255
 10
375.3797142817
 20
-49.4002499924
 10
376.9992463144
 20
-51.4908743209
 10
378.5560275207
 20
-53.6550491185
 10
380.0444850279
 20
-55.885027201
 10
381.4592905445
 20
-58.1728258259
 10
382.7953794339
 20
-60.5102552676
 10
384.0479688447
 20
-62.8889481356
 10
385.2125748318
 20
-65.3003893265
 10
386.285028408
 20
-67.735946507
 10
387.261490468
 20
-70.1869010143
 10
388.1384655309
 20
-72.6444790674
 10
388.9128142536
 20
-75.0998831747
 10
389.5817646688
 20
-77.5443236269
 10
390.1429221074
 20
-79.9690499614
 10
390.5942777716
 20
-82.3653822873
 10
390.9342159251
 20
-84.7247423569
 10
391.1615196777
 20
-87.0386842733
 10
391.2753753408
 20
-89.2989247252
 10
391.2753753408
 20
-91.4973726382
 10
391.1615196777
 20
-93.6261581395
 10
390.9342159251
 20
-95.6776607295
 10
390.5942777716
 20
-97.6445365612
 10
390.1429221074
 20
-99.5197447297
 10
389.5817646688
 20
-101.2965724765
 10
388.9128142536
 20
-102.9686592193
 10
388.1384655309
 20
-104.5300193217
 10
387.261490468
 20
-105.9750635195
 10
386.285028408
 20
-107.2986189298
 10
385.2125748318
 20
-108.4959475675
 10
384.0479688447
 20
-109.5627633069
 10
382.7953794339
 20
-110.4952472246
 10
381.9679831893
 20
-111.0093864259
  0
LWPOLYLINE
  5
C6
330
1F
100
AcDbEntity
  8
0
  6
Continuous
 62
     7
370
    25
100
AcDbPolyline
 90
      106
 70
   128
 43
0.0
 10
254.8180080894
 20
-95.7130228616
 10
254.8749614114
 20
-93.5484373559
 10
255.0456174994
 20
-91.4573574104
 10
255.3293654489
 20
-89.4472685487
 10
255.7251895158
 20
-87.5253663672
 10
256.2316727528
 20
-85.6985307769
 10
256.8470020812
 20
-83.9733013751
 10
257.5689747818
 20
-82.3558540353
 10
258.3950063797
 20
-80.8519787992
 10
259.3221398962
 20
-79.4670591498
 10
260.3470564338
 20
-78.2060527401
 10
261.4660870575
 20
-77.0734736457
 10
262.6752259279
 20
-76.0733762058
 10
263.9701446418
 20
-75.2093405097
 10
265.3462077262
 20
-74.4844595809
 10
266.7984892325
 20
-73.9013283051
 10
268.3217903697
 20
-73.4620341408
 10
269.9106581151
 20
-73.1681496472
 10
271.5594047346
 20
-73.0207268544
 10
273.2621281431
 20
-73.0202934979
 10
275.0127330329
 20
-73.1668511288
 10
276.8049526927
 20
-73.459875109
 10
278.6323714412
 20
-73.8983164886
 10
280.4884475938
 20
-74.4806057613
 10
282.3665368793
 20
-75.2046584826
 10
284.2599162257
 20
-76.0678827317
 10
286.1618078263
 20
-77.0671883897
 10
288.0654034027
 20
-78.1989982019
 10
289.9638885769
 20
-79.4592605828
 10
291.8504672646
 20
-80.8434641202
 10
293.7183860038
 20
-82.3466537247
 10
295.5609581301
 20
-83.9634483676
 10
297.3715877137
 20
-85.6880603437
 10
299.1437931704
 20
-87.5143159897
 10
300.8712304647
 20
-89.4356777844
 10
302.5477158194
 20
-91.4452677513
 10
304.1672478521
 20
-93.5358920797
 10
305.7240290585
 20
-95.7000668773
 10
307.2124865657
 20
-97.9300449599
 10
308.6272920823
 20
-100.2178435847
 10
309.9633809717
 20
-102.5552730265
 10
311.2159703825
 20
-104.9339658944
 10
312.3805763695
 20
-107.3454070854
 10
313.4530299458
 20
-109.7809642659
 10
314.4294920058
 20
-112.2319187731
 10
315.3064670687
 20
-114.6894968263
 10
316.0808157914
 20
-117.1449009336
 10
316.7497662066
 20
-119.5893413857
 10
317.3109236452
 20
-122.0140677203
 10
317.7622793094
 20
-124.4104000462
 10
318.1022174629
 20
-126.7697601157
 10
318.3295212155
 20
-129.0837020322
 10
318.4433768786
 20
-131.3439424841
 10
318.4433768786
 20
-133.5423903971
 10
318.3295212155
 20
-135.6711758984
 10
318.1022174629
 20
-137.7226784883
 10
317.7622793094
 20
-139.6895543201
 10
317.3109236452
 20
-141.5647624886
 10
316.7497662066
 20
-143.3415902354
 10
316.0808157914
 20
-145.0136769782
 10
315.3064670687
 20
-146.5750370805
 10
314.4294920058
 20
-148.0200812784
 10
313.4530299458
 20
-149.3436366886
 10
312.3805763695
 20
-150.5409653263
 10
311.2159703825
 20
-151.6077810658
 10
309.9633809717
 20
-152.5402649835
 10
308.6272920823
 20
-153.335079029
 10
307.2124865657
 20
-153.9893779744
 10
305.7240290585
 20
-154.5008195992
 10
304.1672478521
 20
-154.8675730752
 10
302.5477158194
 20
-155.0883255201
 10
300.8712304647
 20
-155.1622866973
 10
299.1437931704
 20
-155.0891918452
 10
297.3715877137
 20
-154.8693026244
 10
295.5609581301
 20
-154.503406181
 10
293.7183860038
 20
-153.9928123296
 10
291.8504672646
 20
-153.3393488634
 10
289.9638885769
 20
-152.5453550122
 10
288.0654034027
 20
-151.6136730679
 10
286.1618078263
 20
-150.54763821
 10
284.2599162257
 20
-149.3510665666
 10
282.3665368793
 20
-148.0282415537
 10
280.4884475938
 20
-146.5838985414
 10
278.6323714412
 20
-145.023207903
 10
276.8049526927
 20
-143.3517565058
 10
275.0127330329
 20
-141.5755277121
 10
273.2621281431
 20
-139.7008799599
 10
271.5594047346
 20
-137.7345240017
 10
269.9106581151
 20
-135.6834988814
 10
268.3217903697
 20
-133.5551467367
 10
266.7984892325
 20
-131.3570865158
 10
265.3462077262
 20
-129.0971867039
 10
263.9701446418
 20
-126.7835371557
 10
262.6752259279
 20
-124.4244201363
 10
261.4660870575
 20
-122.0282806722
 10
260.3470564338
 20
-119.6036963208
 10
259.3221398962
 20
-117.1593464648
 10
258.3950063797
 20
-114.7039812424
 10
257.5689747818
 20
-112.2463902238
 10
256.8470020812
 20
-109.7953709469
 10
256.2316727528
 20
-107.3596974248
 10
255.7251895158
 20
-104.9480887364
 10
255.3293654489
 20
-102.5691778149
 10
255.0456174994
 20
-100.231480544
 10
254.8749614114
 20
-97.9433652734
 10
254.8180080894
 20
-95.7130228616
  0
LWPOLYLINE
  5
C7
330
1F
100
AcDbEntity
  8
0
  6
Continuous
 62
     7
370
    25
100
AcDbPolyline
 90
       96
 70
   128
 43
0.0
 10
260.6162836951
 20
-99.0602961201
 10
260.673176459
 20
-97.1072033483
 10
260.8436059732
 20
-95.2283379413
 10
261.1268269928
 20
-93.4319156995
 10
261.5216010643
 20
-91.7257919203
 10
262.0262019411
 20
-90.1174270487
 10
262.6384231321
 20
-88.6138540553
 10
263.3555875497
 20
-87.2216476821
 10
264.1745592163
 20
-85.9468956933
 10
265.0917569773
 20
-84.7951722552
 10
266.1031701602
 20
-83.7715135611
 10
267.2043761126
 20
-82.8803958102
 10
268.3905595409
 20
-82.1257156336
 10
269.6565335669
 20
-81.5107730558
 10
270.9967624082
 20
-81.0382570641
 10
272.4053855851
 20
-80.7102338507
 10
273.876243547
 20
-80.5281377777
 10
275.402904606
 20
-80.492765105
 10
276.978693062
 20
-80.6042705081
 10
278.5967183929
 20
-80.8621664024
 10
280.2499053856
 20
-81.2653250747
 10
281.931025074
 20
-81.8119836147
 10
283.6327263495
 20
-82.4997516237
 10
285.3475681054
 20
-83.3256216673
 10
287.068051775
 20
-84.2859824257
 10
288.786654121
 20
-85.3766344859
 10
290.4958601325
 20
-86.5928087038
 10
292.1881958867
 20
-87.929187059
 10
293.8562612297
 20
-89.379925909
 10
295.4927621364
 20
-90.9386815419
 10
297.0905426045
 20
-92.598637916
 10
298.6426159468
 20
-94.3525364644
 10
300.1421953412
 20
-96.192707835
 10
301.5827235088
 20
-98.1111054265
 10
302.9579013864
 20
-100.0993405745
 10
304.2617156709
 20
-102.1487192325
 10
305.4884651143
 20
-104.2502799891
 10
306.6327854534
 20
-106.3948332538
 10
307.6896728664
 20
-108.5730014409
 10
308.6545058538
 20
-110.775259975
 10
309.5230654462
 20
-112.99197894
 10
310.2915536536
 20
-115.2134651877
 10
310.9566100725
 20
-117.4300047242
 10
311.5153265806
 20
-119.6319051859
 10
311.9652600526
 20
-121.8095382224
 10
312.3044430439
 20
-123.9533815985
 10
312.5313923937
 20
-126.0540608326
 10
312.6451157102
 20
-128.1023901889
 10
312.6451157102
 20
-130.0894128443
 10
312.5313923937
 20
-132.0064400542
 10
312.3044430439
 20
-133.8450891465
 10
311.9652600526
 20
-135.5973201765
 10
311.5153265806
 20
-137.2554710837
 10
310.9566100725
 20
-138.8122911962
 10
310.2915536536
 20
-140.2609729356
 10
309.5230654462
 20
-141.5951815854
 10
308.6545058538
 20
-142.8090829905
 10
307.6896728664
 20
-143.897369069
 10
306.6327854534
 20
-144.8552810228
 10
305.4884651143
 20
-145.6786301467
 10
304.2617156709
 20
-146.3638161443
 10
302.9579013864
 20
-146.9078428717
 10
301.5827235088
 20
-147.3083314384
 10
300.1421953412
 20
-147.5635306099
 10
298.6426159468
 20
-147.672324465
 10
297.0905426045
 20
-147.6342372759
 10
295.4927621364
 20
-147.4494355882
 10
293.8562612297
 20
-147.1187274927
 10
292.1881958867
 20
-146.6435590917
 10
290.4958601325
 20
-146.0260081758
 10
288.786654121
 20
-145.2687751379
 10
287.068051775
 20
-144.3751711655
 10
285.3475681054
 20
-143.3491037613
 10
283.6327263495
 20
-142.1950596572
 10
281.931025074
 20
-140.9180851942
 10
280.2499053856
 20
-139.5237642569
 10
278.5967183929
 20
-138.0181938558
 10
276.978693062
 20
-136.4079574674
 10
275.402904606
 20
-134.7000962456
 10
273.876243547
 20
-132.902078233
 10
272.4053855851
 20
-131.0217657048
 10
270.9967624082
 20
-129.0673807894
 10
269.6565335669
 20
-127.0474695148
 10
268.3905595409
 20
-124.9708644389
 10
267.2043761126
 20
-122.8466460274
 10
266.1031701602
 20
-120.684102947
 10
265.0917569773
 20
-118.4926914482
 10
264.1745592163
 20
-116.2819940161
 10
263.3555875497
 20
-114.061677468
 10
262.6384231321
 20
-111.8414506832
 10
262.0262019411
 20
-109.6310221485
 10
261.5216010643
 20
-107.4400575055
 10
261.1268269928
 20
-105.2781372852
 10
260.8436059732
 20
-103.1547150146
 10
260.673176459
 20
-101.0790758789
 10
260.6162836951
 20
-99.0602961201
  0
LWPOLYLINE
  5
C8
330
1F
100
AcDbEntity
  8
0
  6
Continuous
 62
     7
370
    25
100
AcDbPolyline
 90
       66
 70
   128
 43
0.0
 10
352.6354444319
 20
0.2255873671
 10
352.8374721829
 20
0.340796274
 10
354.5196339616
 20
1.1956416459
 10
356.2779347798
 20
1.9082349308
 10
358.1080717807
 20
2.4768322936
 10
360.0055663125
 20
2.9000422811
 10
361.965774888
 20
3.1768292277
 10
363.9839005483
 20
3.3065157893
 10
366.0550046018
 20
3.2887846011
 10
368.1740187099
 20
3.1236790544
 10
370.3357572899
 20
2.81160319
 10
372.5349302052
 20
2.3533207099
 10
374.7661557112
 20
1.7499531082
 10
377.0239736253
 20
1.0029769264
 10
379.3028586885
 20
0.1142201405
 10
381.5972340874
 20
-0.9141423127
 10
383.9014851008
 20
-2.0795938581
 10
386.2099728404
 20
-3.3792824404
 10
388.5170480498
 20
-4.8100275038
 10
390.8170649295
 20
-6.3683277754
 10
393.1043949526
 20
-8.0503698334
 10
395.3734406393
 20
-9.8520374389
 10
397.6186492546
 20
-11.7689216094
 10
399.8345263968
 20
-13.7963314081
 10
402.0156494433
 20
-15.9293054235
 10
404.1566808203
 20
-18.1626239108
 10
406.2523810654
 20
-20.4908215654
 10
408.2976216488
 20
-22.9082008975
 10
410.2873975242
 20
-25.4088461748
 10
412.2168393766
 20
-27.9866378992
 10
414.0812255384
 20
-30.6352677824
 10
415.8759935442
 20
-33.3482541834
 10
417.596751296
 20
-36.1189579696
 10
419.2392878113
 20
-38.9405987648
 10
420.7995835279
 20
-41.806271541
 10
422.2738201407
 20
-44.7089635167
 10
423.6583899458
 20
-47.6415713183
 10
424.9499046688
 20
-50.596918363
 10
426.1452037567
 20
-53.5677724214
 10
427.2413621124
 20
-56.5468633159
 10
428.2356972527
 20
-59.5269007117
 10
429.1257758729
 20
-62.5005919579
 10
429.9094198014
 20
-65.4606599339
 10
430.5847113303
 20
-68.3998608572
 10
431.149997908
 20
-71.3110020107
 10
431.6038961835
 20
-74.1869593441
 10
431.9452953917
 20
-77.020694908
 10
432.1733600716
 20
-79.8052740764
 10
432.2875321106
 20
-82.5338825176
 10
432.2875321106
 20
-85.1998428695
 10
432.1733600716
 20
-87.7966310804
 10
431.9452953917
 20
-90.3178923744
 10
431.6038961835
 20
-92.7574568026
 10
431.149997908
 20
-95.109354342
 10
430.5847113303
 20
-97.3678295052
 10
429.9094198014
 20
-99.5273554251
 10
429.1257758729
 20
-101.5826473799
 10
428.2356972527
 20
-103.5286757258
 10
427.2413621124
 20
-105.3606782052
 10
426.1452037567
 20
-107.0741716011
 10
424.9499046688
 20
-108.6649627081
 10
423.6583899458
 20
-110.1291585938
 10
422.2738201407
 20
-111.4631761254
 10
420.7995835279
 20
-112.6637507385
 10
419.2392878113
 20
-113.7279444258
 10
418.6300807859
 20
-114.0928624672
  0
LWPOLYLINE
  5
C9
330
1F
100
AcDbEntity
  8
0
  6
Continuous
 62
     7
370
    25
100
AcDbPolyline
 90
       98
 70
   128
 43
0.0
 10
326.971598783
 20
-38.837889854
 10
326.9428997704
 20
-36.9316388104
 10
327.0000032603
 20
-34.2994592327
 10
327.1711739881
 20
-31.7396513257
 10
327.4559930705
 20
-29.258479368
 10
327.8537635074
 20
-26.8620152034
 10
328.3635118878
 20
-24.5561233812
 10
328.9839907721
 20
-22.3464468051
 10
329.7136817445
 20
-20.2383929239
 10
330.5507991288
 20
-18.2371204989
 10
331.4932943587
 20
-16.3475269788
 10
332.5388609902
 20
-14.5742365158
 10
333.6849403467
 20
-12.9215886487
 10
334.9287277798
 20
-11.3936276838
 10
336.2671795335
 20
-9.9940927976
 10
337.6970201918
 20
-8.7264088865
 10
339.2147506952
 20
-7.5936781856
 10
340.8166569027
 20
-6.5986726765
 10
342.4988186814
 20
-5.7438273046
 10
344.2571194996
 20
-5.0312340197
 10
346.0872565006
 20
-4.4626366569
 10
347.9847510323
 20
-4.0394266694
 10
349.9449596078
 20
-3.7626397228
 10
351.9630852681
 20
-3.6329531612
 10
354.0341893217
 20
-3.6506843494
 10
356.1532034297
 20
-3.8157898961
 10
358.3149420097
 20
-4.1278657605
 10
360.514114925
 20
-4.5861482406
 10
362.745340431
 20
-5.1895158423
 10
365.0031583451
 20
-5.9364920241
 10
367.2820434084
 20
-6.82524881
 10
369.5764188072
 20
-7.8536112632
 10
371.8806698206
 20
-9.0190628086
 10
374.1891575602
 20
-10.3187513909
 10
376.4962327697
 20
-11.7494964543
 10
378.7962496493
 20
-13.3077967259
 10
381.0835796724
 20
-14.9898387839
 10
383.3526253591
 20
-16.7915063894
 10
385.5978339745
 20
-18.7083905599
 10
387.8137111167
 20
-20.7358003586
 10
389.9948341631
 20
-22.868774374
 10
392.1358655401
 20
-25.1020928613
 10
394.2315657852
 20
-27.4302905159
 10
396.2768063687
 20
-29.847669848
 10
398.2665822441
 20
-32.3483151253
 10
400.1960240964
 20
-34.9261068497
 10
402.0604102582
 20
-37.5747367329
 10
403.855178264
 20
-40.2877231339
 10
405.5759360158
 20
-43.0584269201
 10
407.2184725311
 20
-45.8800677153
 10
408.7787682477
 20
-48.7457404914
 10
410.2530048605
 20
-51.6484324672
 10
411.6375746656
 20
-54.5810402687
 10
412.9290893886
 20
-57.5363873135
 10
414.1243884765
 20
-60.5072413719
 10
415.2205468322
 20
-63.4863322664
 10
416.2148819725
 20
-66.4663696621
 10
417.1049605927
 20
-69.4400609084
 10
417.8886045212
 20
-72.4001288844
 10
418.5638960501
 20
-75.3393298077
 10
419.1291826278
 20
-78.2504709612
 10
419.5830809033
 20
-81.1264282946
 10
419.9244801116
 20
-83.9601638584
 10
420.1525447914
 20
-86.7447430269
 10
420.2667168304
 20
-89.4733514681
 10
420.2667168304
 20
-92.13931182
 10
420.1525447914
 20
-94.7361000309
 10
419.9244801116
 20
-97.2573613249
 10
419.5830809033
 20
-99.6969257531
 10
419.1291826278
 20
-102.0488232925
 10
418.5638960501
 20
-104.3072984557
 10
417.8886045212
 20
-106.4668243756
 10
417.1049605927
 20
-108.5221163304
 10
416.2148819725
 20
-110.4681446763
 10
415.2205468322
 20
-112.3001471557
 10
414.1243884765
 20
-114.0136405516
 10
412.9290893886
 20
-115.6044316586
 10
411.6375746656
 20
-117.0686275443
 10
410.2530048605
 20
-118.4026450759
 10
408.7787682477
 20
-119.603219689
 10
407.2184725311
 20
-120.6674133763
 10
405.5759360158
 20
-121.5926218776
 10
403.855178264
 20
-122.3765810527
 10
402.0604102582
 20
-123.017372422
 10
400.1960240964
 20
-123.5134278617
 10
398.2665822441
 20
-123.863533441
 10
396.2768063687
 20
-124.066832393
 10
394.2315657852
 20
-124.1228272109
 10
392.1358655401
 20
-124.0313808661
 10
389.9948341631
 20
-123.7927171431
 10
387.8137111167
 20
-123.407420092
 10
385.5978339745
 20
-122.8764325993
 10
383.3526253591
 20
-122.2010540804
 10
381.0835796724
 20
-121.3829372997
 10
378.7962496493
 20
-120.424084326
 10
376.4962327697
 20
-119.3268416332
 10
374.1891575602
 20
-118.0938943581
 10
371.9679417516
 20
-116.7822874682
  0
LWPOLYLINE
  5
CA
330
1F
100
AcDbEntity
  8
0
  6
Continuous
 62
     7
370
    25
100
AcDbPolyline
 90
       71
 70
   128
 43
0.0
 10
339.4248630369
 20
-24.4980897788
 10
339.9522504793
 20
-23.6231949296
 10
340.9869965624
 20
-22.1290022939
 10
342.1191083212
 20
-20.759390472
 10
343.3452070894
 20
-19.5184469239
 10
344.6616337063
 20
-18.4098751129
 10
346.0644594376
 20
-17.4369834529
 10
347.5494976998
 20
-16.6026754351
 10
349.1123165552
 20
-15.9094409625
 10
350.748251938
 20
-15.3593489193
 10
352.452421574
 20
-14.9540409962
 10
354.2197395514
 20
-14.6947267915
 10
356.0449314985
 20
-14.5821802006
 10
357.9225503253
 20
-14.6167371068
 10
359.8469924793
 20
-14.7982943788
 10
361.8125146686
 20
-15.1263101782
 10
363.8132510025
 20
-15.599805577
 10
365.8432304976
 20
-16.2173674788
 10
367.896394897
 20
-16.9771528362
 10
369.9666167512
 20
-17.876894151
 10
372.0477177047
 20
-18.9139062416
 10
374.1334869342
 20
-20.0850942563
 10
376.2176996844
 20
-21.3869629097
 10
378.2941358456
 20
-22.8156269141
 10
380.3565985159
 20
-24.3668225746
 10
382.3989324962
 20
-26.0359205136
 10
384.4150426591
 20
-27.817939487
 10
386.3989121396
 20
-29.7075612496
 10
388.3446202914
 20
-31.6991464275
 10
390.2463603567
 20
-33.7867513477
 10
392.0984567955
 20
-35.9641457767
 10
393.8953822243
 20
-38.2248315136
 10
395.6317739113
 20
-40.5620617838
 10
397.3024497812
 20
-42.9688613734
 10
398.9024238806
 20
-45.4380474466
 10
400.4269212579
 20
-47.9622509816
 10
401.8713922138
 20
-50.533938763
 10
403.2315258793
 20
-53.1454358637
 10
404.5032630809
 20
-55.7889485499
 10
405.6828084548
 20
-58.4565875407
 10
406.7666417743
 20
-61.1403915531
 10
407.7515284546
 20
-63.8323510609
 10
408.6345292068
 20
-66.5244321989
 10
409.4130088096
 20
-69.208600739
 10
410.0846439738
 20
-71.8768460672
 10
410.6474302763
 20
-74.5212050908
 10
411.0996881414
 20
-77.1337860032
 10
411.440067854
 20
-79.706791836
 10
411.6675535872
 20
-82.2325437287
 10
411.7814664341
 20
-84.7035038447
 10
411.7814664341
 20
-87.112297868
 10
411.6675535872
 20
-89.4517370104
 10
411.440067854
 20
-91.7148394662
 10
411.0996881414
 20
-93.894851248
 10
410.6474302763
 20
-95.9852663439
 10
410.0846439738
 20
-97.9798461336
 10
409.4130088095
 20
-99.8726380072
 10
408.6345292068
 20
-101.6579931297
 10
407.7515284546
 20
-103.3305832997
 10
406.7666417743
 20
-104.8854168508
 10
405.6828084548
 20
-106.3178535486
 10
404.5032630809
 20
-107.623618439
 10
403.2315258793
 20
-108.7988146063
 10
401.8713922138
 20
-109.8399348032
 10
400.4269212579
 20
-110.743871918
 10
398.9024238806
 20
-111.5079282469
 10
397.3024497812
 20
-112.1298235456
 10
395.6317739113
 20
-112.6077018341
 10
393.8953822243
 20
-112.9401369357
 10
392.0984567955
 20
-113.1261367336
 10
390.6135441665
 20
-113.1690939557
  0
ENDSEC
  0
SECTION
  2
OBJECTS
  0
DICTIONARY
  5
C
330
0
100
AcDbDictionary
281
     1
  3
ACAD_GROUP
350
D
  3
ACAD_LAYOUT
350
1A
  3
ACAD_MLINESTYLE
350
17
  3
ACAD_PLOTSETTINGS
350
19
  3
ACAD_PLOTSTYLENAME
350
E
  3
ACAD_SCALELIST
350
47
  0
DICTIONARY
  5
D
102
{ACAD_REACTORS
330
C
102
}
330
C
100
AcDbDictionary
281
     1
  0
DICTIONARY
  5
1A
102
{ACAD_REACTORS
330
C
102
}
330
C
100
AcDbDictionary
281
     1
  3
Layout1
350
1E
  3
Layout2
350
26
  3
Model
350
22
  0
DICTIONARY
  5
17
102
{ACAD_REACTORS
330
C
102
}
330
C
100
AcDbDictionary
281
     1
  3
Standard
350
18
  0
DICTIONARY
  5
19
102
{ACAD_REACTORS
330
C
102
}
330
C
100
AcDbDictionary
281
     1
  0
ACDBDICTIONARYWDFLT
  5
E
102
{ACAD_REACTORS
330
C
102
}
330
C
100
AcDbDictionary
281
     1
  3
Normal
350
F
100
AcDbDictionaryWithDefault
340
F
  0
DICTIONARY
  5
47
102
{ACAD_REACTORS
330
C
102
}
330
C
100
AcDbDictionary
281
     1
  3
A0
350
48
  3
A1
350
49
  3
A2
350
4A
  3
A3
350
4B
  3
A4
350
4C
  3
A5
350
4D
  3
A6
350
4E
  3
A7
350
4F
  3
A8
350
50
  3
A9
350
51
  3
B0
350
52
  3
B1
350
53
  3
B2
350
54
  3
B3
350
55
  3
B4
350
56
  3
B5
350
57
  3
B6
350
58
  3
B7
350
59
  3
B8
350
5A
  3
B9
350
5B
  3
C0
350
5C
  3
C1
350
5D
  3
C2
350
5E
  3
C3
350
5F
  3
C4
350
60
  3
C5
350
61
  3
C6
350
62
  3
C7
350
63
  3
C8
350
64
  3
C9
350
65
  3
D0
350
66
  3
D1
350
67
  3
D2
350
68
  0
LAYOUT
  5
1E
102
{ACAD_REACTORS
330
1A
102
}
330
1A
100
AcDbPlotSettings
  1

  2
none_device
  4

  6

 40
0.0
 41
0.0
 42
0.0
 43
0.0
 44
0.0
 45
0.0
 46
0.0
 47
0.0
 48
0.0
 49
0.0
140
0.0
141
0.0
142
1.0
143
1.0
 70
   688
 72
     1
 73
     0
 74
     5
  7

 75
    16
147
1.0
148
0.0
149
0.0
100
AcDbLayout
  1
Layout1
 70
     1
 71
     1
 10
0.0
 20
0.0
 11
420.0
 21
297.0
 12
0.0
 22
0.0
 32
0.0
 14
1.0000000000E+20
 24
1.0000000000E+20
 34
1.0000000000E+20
 15
-1.0000000000E+20
 25
-1.0000000000E+20
 35
-1.0000000000E+20
146
0.0
 13
0.0
 23
0.0
 33
0.0
 16
1.0
 26
0.0
 36
0.0
 17
0.0
 27
1.0
 37
0.0
 76
     0
330
1B
  0
LAYOUT
  5
26
102
{ACAD_REACTORS
330
1A
102
}
330
1A
100
AcDbPlotSettings
  1

  2
none_device
  4

  6

 40
0.0
 41
0.0
 42
0.0
 43
0.0
 44
0.0
 45
0.0
 46
0.0
 47
0.0
 48
0.0
 49
0.0
140
0.0
141
0.0
142
1.0
143
1.0
 70
   688
 72
     1
 73
     0
 74
     5
  7

 75
    16
147
1.0
148
0.0
149
0.0
100
AcDbLayout
  1
Layout2
 70
     1
 71
     2
 10
0.0
 20
0.0
 11
0.0
 21
0.0
 12
0.0
 22
0.0
 32
0.0
 14
0.0
 24
0.0
 34
0.0
 15
0.0
 25
0.0
 35
0.0
146
0.0
 13
0.0
 23
0.0
 33
0.0
 16
1.0
 26
0.0
 36
0.0
 17
0.0
 27
1.0
 37
0.0
 76
     0
330
23
  0
LAYOUT
  5
22
102
{ACAD_REACTORS
330
1A
102
}
330
1A
100
AcDbPlotSettings
  1

  2
none_device
  4
Letter_(8.50_x_11.00_Inches)
  6

 40
6.35
 41
6.35
 42
6.35000508
 43
6.35000508
 44
215.9
 45
279.4
 46
0.0
 47
0.0
 48
0.0
 49
0.0
140
0.0
141
0.0
142
1.0
143
1.0
 70
  1712
 72
     1
 73
     0
 74
     0
  7

 75
     0
147
1.0
148
0.0
149
0.0
100
AcDbLayout
  1
Model
 70
     1
 71
     0
 10
0.0
 20
0.0
 11
279.4
 21
215.9
 12
0.0
 22
0.0
 32
0.0
 14
0.0
 24
0.0
 34
0.0
 15
279.4
 25
215.9
 35
0.0
146
0.0
 13
0.0
 23
0.0
 33
0.0
 16
1.0
 26
0.0
 36
0.0
 17
0.0
 27
1.0
 37
0.0
 76
     0
330
1F
331
29
  0
MLINESTYLE
  5
18
102
{ACAD_REACTORS
330
17
102
}
330
17
100
AcDbMlineStyle
  2
Standard
 70
     0
  3

 62
   256
 51
90.0
 52
90.0
 71
     2
 49
0.5
 62
   256
  6
BYLAYER
 49
-0.5
 62
   256
  6
BYLAYER
  0
ACDBPLACEHOLDER
  5
F
102
{ACAD_REACTORS
330
E
102
}
330
E
  0
SCALE
  5
48
102
{ACAD_REACTORS
330
47
102
}
330
47
100
AcDbScale
 70
     0
300
1:1
140
1.0
141
1.0
290
     1
  0
SCALE
  5
49
102
{ACAD_REACTORS
330
47
102
}
330
47
100
AcDbScale
 70
     0
300
1:2
140
1.0
141
2.0
290
     0
  0
SCALE
  5
4A
102
{ACAD_REACTORS
330
47
102
}
330
47
100
AcDbScale
 70
     0
300
1:4
140
1.0
141
4.0
290
     0
  0
SCALE
  5
4B
102
{ACAD_REACTORS
330
47
102
}
330
47
100
AcDbScale
 70
     0
300
1:5
140
1.0
141
5.0
290
     0
  0
SCALE
  5
4C
102
{ACAD_REACTORS
330
47
102
}
330
47
100
AcDbScale
 70
     0
300
1:8
140
1.0
141
8.0
290
     0
  0
SCALE
  5
4D
102
{ACAD_REACTORS
330
47
102
}
330
47
100
AcDbScale
 70
     0
300
1:10
140
1.0
141
10.0
290
     0
  0
SCALE
  5
4E
102
{ACAD_REACTORS
330
47
102
}
330
47
100
AcDbScale
 70
     0
300
1:16
140
1.0
141
16.0
290
     0
  0
SCALE
  5
4F
102
{ACAD_REACTORS
330
47
102
}
330
47
100
AcDbScale
 70
     0
300
1:20
140
1.0
141
20.0
290
     0
  0
SCALE
  5
50
102
{ACAD_REACTORS
330
47
102
}
330
47
100
AcDbScale
 70
     0
300
1:30
140
1.0
141
30.0
290
     0
  0
SCALE
  5
51
102
{ACAD_REACTORS
330
47
102
}
330
47
100
AcDbScale
 70
     0
300
1:40
140
1.0
141
40.0
290
     0
  0
SCALE
  5
52
102
{ACAD_REACTORS
330
47
102
}
330
47
100
AcDbScale
 70
     0
300
1:50
140
1.0
141
50.0
290
     0
  0
SCALE
  5
53
102
{ACAD_REACTORS
330
47
102
}
330
47
100
AcDbScale
 70
     0
300
1:100
140
1.0
141
100.0
290
     0
  0
SCALE
  5
54
102
{ACAD_REACTORS
330
47
102
}
330
47
100
AcDbScale
 70
     0
300
2:1
140
2.0
141
1.0
290
     0
  0
SCALE
  5
55
102
{ACAD_REACTORS
330
47
102
}
330
47
100
AcDbScale
 70
     0
300
4:1
140
4.0
141
1.0
290
     0
  0
SCALE
  5
56
102
{ACAD_REACTORS
330
47
102
}
330
47
100
AcDbScale
 70
     0
300
8:1
140
8.0
141
1.0
290
     0
  0
SCALE
  5
57
102
{ACAD_REACTORS
330
47
102
}
330
47
100
AcDbScale
 70
     0
300
10:1
140
10.0
141
1.0
290
     0
  0
SCALE
  5
58
102
{ACAD_REACTORS
330
47
102
}
330
47
100
AcDbScale
 70
     0
300
100:1
140
100.0
141
1.0
290
     0
  0
SCALE
  5
59
102
{ACAD_REACTORS
330
47
102
}
330
47
100
AcDbScale
 70
     0
300
1/128" = 1'-0"
140
0.0078125
141
12.0
290
     0
  0
SCALE
  5
5A
102
{ACAD_REACTORS
330
47
102
}
330
47
100
AcDbScale
 70
     0
300
1/64" = 1'-0"
140
0.015625
141
12.0
290
     0
  0
SCALE
  5
5B
102
{ACAD_REACTORS
330
47
102
}
330
47
100
AcDbScale
 70
     0
300
1/32" = 1'-0"
140
0.03125
141
12.0
290
     0
  0
SCALE
  5
5C
102
{ACAD_REACTORS
330
47
102
}
330
47
100
AcDbScale
 70
     0
300
1/16" = 1'-0"
140
0.0625
141
12.0
290
     0
  0
SCALE
  5
5D
102
{ACAD_REACTORS
330
47
102
}
330
47
100
AcDbScale
 70
     0
300
3/32" = 1'-0"
140
0.09375
141
12.0
290
     0
  0
SCALE
  5
5E
102
{ACAD_REACTORS
330
47
102
}
330
47
100
AcDbScale
 70
     0
300
1/8" = 1'-0"
140
0.125
141
12.0
290
     0
  0
SCALE
  5
5F
102
{ACAD_REACTORS
330
47
102
}
330
47
100
AcDbScale
 70
     0
300
3/16" = 1'-0"
140
0.1875
141
12.0
290
     0
  0
SCALE
  5
60
102
{ACAD_REACTORS
330
47
102
}
330
47
100
AcDbScale
 70
     0
300
1/4" = 1'-0"
140
0.25
141
12.0
290
     0
  0
SCALE
  5
61
102
{ACAD_REACTORS
330
47
102
}
330
47
100
AcDbScale
 70
     0
300
3/8" = 1'-0"
140
0.375
141
12.0
290
     0
  0
SCALE
  5
62
102
{ACAD_REACTORS
330
47
102
}
330
47
100
AcDbScale
 70
     0
300
1/2" = 1'-0"
140
0.5
141
12.0
290
     0
  0
SCALE
  5
63
102
{ACAD_REACTORS
330
47
102
}
330
47
100
AcDbScale
 70
     0
300
3/4" = 1'-0"
140
0.75
141
12.0
290
     0
  0
SCALE
  5
64
102
{ACAD_REACTORS
330
47
102
}
330
47
100
AcDbScale
 70
     0
300
1" = 1'-0"
140
1.0
141
12.0
290
     0
  0
SCALE
  5
65
102
{ACAD_REACTORS
330
47
102
}
330
47
100
AcDbScale
 70
     0
300
1-1/2" = 1'-0"
140
1.5
141
12.0
290
     0
  0
SCALE
  5
66
102
{ACAD_REACTORS
330
47
102
}
330
47
100
AcDbScale
 70
     0
300
3" = 1'-0"
140
3.0
141
12.0
290
     0
  0
SCALE
  5
67
102
{ACAD_REACTORS
330
47
102
}
330
47
100
AcDbScale
 70
     0
300
6" = 1'-0"
140
6.0
141
12.0
290
     0
  0
SCALE
  5
68
102
{ACAD_REACTORS
330
47
102
}
330
47
100
AcDbScale
 70
     0
300
1'-0" = 1'-0"
140
12.0
141
12.0
290
     0
  0
ENDSEC
  0
EOF
